Hey There, Mystery Person
Trying to vote on a comment, eh? You need an account to do that! You should totally get one! You'll get your own username and can participate in community stuff. It's awesome! Already have an account? Log in above!

The Original Venture Bros. News & Information Site

Jacket Bass Tablature

"Jacket" by Shallow Gravy. Watch the music video here on Adult Swim Video.

"Jacket" is written by Doc Hammer and performed by Doc Hammer (vocals, instruments) and Jackson Publick (vocals). These bass tabs come from GuitarTabs.cc thanks to a nameless mystery man (or woman). If you happen to be him (or know him) let me know so I can give you proper credit! The note at the end of the tabs is also written by the author.

Intro:
G|----------|
D|----------|
A|----------|
E|--12/-----|

                  
Verse (5x):
G|---------------------------5h7---| 
D|------7------7------7------------|  
A|---------------------------------|   
E|--5-5----5-5----5-5----5-5-------|    

G|---------------------------------|
D|------7------7------3--------5---|
A|---------------------------------|
E|--5-5----5-5----1-1---1--3-3---1-|


Chorus (2x):
G|----7-----7------10------10------| 
D|---------------------------------|  
A|--5---5-5---5--8----8-8-----8----|   
E|---------------------------------|    

G|----5-----5------3-----3---------|
D|---------------------------------|
A|--3---3-3---3--1---1-1---1-------|
E|---------------------------------|

Second time don't do this:
G|----3-----3----|
D|---------------|
A|--1---1-1---1--|
E|---------------|


Post-Chorus:
G|---7-7-5-7-7-5-7-7-5----5-7-5----|
D|----------------------7----------|
A|---------------------------------|
E|---------------------------------|

G|---7-7-5-7-7-5-7-7-5-------------|
D|---------------------7-5-3-2-0---|
A|---------------------------------|
E|---------------------------------|


[Break]


Come back with this:
G|--------------------|
D|------3--------5----|
A|--------------------|
E|--1-1---1--3-3---3--|


Verse (5x):
G|---------------------------5h7---| 
D|------7------7------7------------|  
A|---------------------------------|   
E|--5-5----5-5----5-5----5-5-------|    

G|---------------------------------|
D|------7------7------3--------5---|
A|---------------------------------|
E|--5-5----5-5----1-1---1--3-3---1-|


Chorus (2x):
G|----7-----7------10------10------| 
D|---------------------------------|  
A|--5---5-5---5--8----8-8-----8----|   
E|---------------------------------|    

G|----5-----5------3-----3---------|
D|---------------------------------|
A|--3---3-3---3--1---1-1---1-------|
E|---------------------------------|

Second time don't do this
G|----3-----3----|
D|---------------|
A|--1---1-1---1--|
E|---------------|


Post-Chorus:
G|---7-7-5-7-7-5-7-7-5----5-7-5----|
D|----------------------7----------|
A|---------------------------------|
E|---------------------------------|

G|---7-7-5-7-7-5-7-7-5-------------|
D|---------------------7-5---------|
A|---------------------------------|
E|---------------------------------|


End with this:
G|--------------|
D|--3~--5~--0~--|
A|--------------|
E|--------------|

[S]hould be right the rythms are easy if you hear the song, the post chorus might be a little off and i would've done the synth part in the background but it just seems to be the same notes as the bass..... hope you enjoy!!

[source: GuitarTabs.cc]

Latest Features

Commercial Break

Popular Features

More Features